- Северный ветер

2
Распечатать песню
14
В избранные

Аккорды к песне Северный ветер

Перебор (восьмерка):
1.)---------------X---------------
2.)---------X-----------X---------
3.)------X-----X-----X-----X------
4.)--X----------------------------
5.)-------------------------------
6.)-------------------------------
Аккорды: 
Аккорд 1
1.)-----------
2.)---6-------
3.)------7----
4.)-----------
5.)-----------
6.)-----------
Аккорд 2
1.)-----------
2.)---6-------
3.)------7----
4.)---------8-
5.)-----------
6.)-----------
Аккорд 3
1.)-----------
2.)---8-------
3.)------7----
4.)---------8-
5.)-----------
6.)-----------
Аккорд 4
1.)-----------
2.)---5-------
3.)------6----
4.)---------7-
5.)-----------
6.)-----------
Аккорд 1 
Северный ветер 
Аккорд 2
Тихо ветви колышет, 
Аккорд 3
Маленький домик 
Аккорд 4
Стоит у реки.
Там маленький мальчик 
Тянет к маме ладони, 
Маму зовет, 
Но а мама все спит.
Припев:
Мама ты спишь, 
А тебя одевают 
В белый совсем 
Незнакомый наряд. 
Там люди чужие 
Молитвы читают, 
Свечи восковые 
Ярко горят 
Горя –я-я-я-я-т, свечи ярко горят...
Тетя скажи 
Почему папа плачет, 
Папа скажи 
Почему мама спит. 
Папа пойдём 
Ты сыграй на рояле, 
Пусть наша мама 
С нами будет всегда.
Припев:
Нет мой малыш, 
Мама больше 
Не встанет 
Мама навеки 
Закрыла глаза. 
Завтра ее в 
Землю закопают 
Будешь навеки 
Ты сирота 
Горя –я-я-я-я-т, свечи ярко горят...
Время пройдет. 
Ты жену молодую 
В дом приведешь, 
Будешь крепко любить. 
Время пройдет. 
Только ты не забудешь, 
Вечно родную, 
Милую мать...
Горя –я-я-я-я-т, свечи ярко горят...