- Прощание славянки, аккорды

4
Распечатать
Шрифт 14
В избранные

Аппликатуры аккордов к песне Прощание славянки

   C(III)         E(VII)          Am(V)
1-------0-----0-----0-----0--------------0-----0-----0--------0-----0-----0------------------0-----0-----0-
2-------1-----1-----1-----1--------------0-----0-----0--------0-----0-----0------------------1-----1-----1-
3-------0-----0-----0-----0--------------1-----1-----1--------1-----1-----1------------------2-----2-----2-
4----------------------------------------------------------------------------------------------------------
53----3-----3-----3--0--2------2-----2---------------2-----2------2-2-3-2-0------0-----0-------------------
6---0---------------------------------------------------------0--------------------------------------------
 
   Am(V)          Dm(V)    -/   E(VII)        Am(V)
1------0-----0-----0--------------------1-----1------------------0-----0-----0-------------0-----0-----0--
2-----1-----1-----1--------------------3-----3------------------0-----0-----0-------------1-----1-----1---
32----2--------------------2-----2------------------1-----1-----1-------------2-----2-----2---------------
4-------------------------0-----0------0-0-2-3-2----------------------------------------------------------
5---------0-----0------0-0-3-0-------------------------------------2-----3------3-2-0------0------0-------
6--0------------------------------------------------------------------------------------------------------                

Видео игры на гитаре, разборы песни Прощание славянки

Песни из кино и мультфильмов популярные подборы аккордов

Посмотреть все подборы аккордов