- Блюз свиньи В ушах, аккорды

4
Распечатать
Шрифт 14
В избранные

Аппликатуры аккордов к песне Блюз свиньи В ушах

Вступление:
E|---------|-5-5-5-5-5-5-5-5-|-5-8-7-5---------|
B|---5-7-5-|-5-5-5-5-5-5-5-5-|-5-------8-7-5---|
G|-6-------|-----------------|---------------8-|
D|---------|-----------------|-----------------|
A|---------|-----------------|-----------------|
E|---------|-----------------|-----------------|
 
E|-----------------|-------------------|
B|-----------------|-----5-7-5-8-5-7-5-|
G|-7-6-6-6-6-6-6-6-|-6-6---------------|
D|-----7-7-7-7-7-7-|-7-7---------------|
A|-----------------|-------------------|
E|-----------------|-------------------|

E|-------------------------------|
B|-------------------------------|
G|-2-2-4-2-5-2-4-2-2-4-2-5-2-4-2-|
D|-0-------------0---------------|
A|-------------------------------|
E|-------------------------------|

E|-------------------------------|
B|-------------------------------|
G|-------------------------------|
D|-2-2-4-2-5-2-4-2-2-4-2-5-2-4-2-|
A|-0-------------0---------------|
E|-------------------------------|

C D
E|-----------------|
B|-----------------|
G|-----------------|
D|-2-2-4-2-5-2-4-2-|
A|-0-------------0-|
E|-----------------|
E

   A
Когда я был живым,
  A
Я был похож на дым,
  A
И дым шести снегов
       A
Тогда был тоже молодым;
       D D
У синих скал
       A A
Я вверх упал,
     C
В то время как зеленый бог
    D
В мерцании веков
     A E
Себя искал.

Вернулся я домой, и труп любимый мой
Спросил меня: Что делал ты, когда ты был живой?
Я знал секрет: мой брат скелет
Признался мне однажды,
Что давно уже его на свете нет.

Вы слышите меня, в ушах у вас свинья;
Вы не поймете, для чего пою вам это я;
Но есть цветок, и есть песок,
А для чего цветок в песке
Вам не понять до гробовых досок.

E|---------------|
B|---------------|
G|---------------|
D|-2-2-4-2-5-2-4-|
A|-0-------------|
E|---------------|
 A

E|---------------|
B|---------------|
G|-2-2-4-2-5-2-4-|
D|-0-------------|
A|---------------|
E|---------------|
 D                     

Видео игры на гитаре, разборы песни Блюз свиньи В ушах

Аквариум популярные подборы аккордов

Посмотреть все подборы аккордов