- Акуна матата, аккорды

4
Распечатать
Шрифт 14
В избранные

Аппликатуры аккордов к песне Акуна матата

Вступление:
E---------------------------------
B---------------------------0sl4--
G----------4----------------------
D----2-4h6-6-6-4-2-4-2-5~2--------
A-2-4-----------------------3--2--
E--------------------------------- 

  E               A   E
E-----------------------------------
B-0-2-5-2-0-0-2-5--2---2-5-2-0-0-2-5
G-----------------2-2-1-------------
D-----------------------------------
A-----------------------------------
E-----------------------------------

           E F#m7 B7(II)   E  F#m7 B7(II)
Акуна матата,     Акуна матата,
E           F#m7          B7(II)         E F#m7 B7(II) 
 Самое время    говорить цитатами из Диснея
E                    E7
 Акуна матата, значит  "Всё в порядке"
A                    Am
 Нет проблемы, а если есть, то бог с нею
          E                  C#7
Но перед тем, как это судно опустится на дно

                               E---------------
F#m7          B7(II)           B-4-2-0---------
                               G------2-1-2-3-4
Я    хотел бы сказать тебе одно

         E            F#m7     B7(II)
Акуна матата, как говорят на суахили
E                         F#m7        B7(II)
 Акуна матата, у тебя есть выбор: или - или
E        E7          A          Am
 Или радикально изменить свои пути
   E              C#7        F#m7      B7(II)
Или - что более вероятно - немедленно уйти.
         E          F#m7          B7(II)
Акуна матата, ты не ветер, а я не флюгер
E                        F#m7             B7(II)
 Будь это сон, я бы представился: "Freddy Krueger"
E      E7        A              Am
 Но наяву всё гуманнее, чем во сне
E          C#7            F#m7     B7(II)
 Дверной проём находится в этой стороне.

  A                Am
Всё суета сует и всяческая суета
E                      E7 
 Но даже суета бывает та или не та
       A    Am
Мне приятно делать гостям приятно,
      B7(II)
Но какая именно часть слова "уйти" тебе не понятна?
  E             F#m7           B7(II)
Акуна матата, ни дюйма, ни сантиметра
E                   F#m7          B7(II)
 Акуна матата, baby,    попутного ветра
E       E7            A               Am
 Arrivederci, buenas noches, в добрый час
E             C#7    F#m7        B7(II)
  Мне будет приятно увидеться ещё раз.

Заключение:
E F#m7 B7(II) E F#m7 B7(II) E E7 A Am E C#7 F#m7 B7(II) - 2p.

  E               A   E              A  E
E---------------------------------------0
B-0-2-5-2-0-0-2-5--2---2-5-2-0-0-2-5--2-0
G-----------------2-2-1--------------2--1
D---------------------------------------2
A---------------------------------------2
E---------------------------------------0                

Видео игры на гитаре, разборы песни Акуна матата

Аквариум популярные подборы аккордов

Посмотреть все подборы аккордов