System Of A Down

Альтернативная метал-группа из г. Глендейл, шт. Калифорния, США, основанная в 1994 году. Все пять выпущенных группой студийных альбомов стали платиновыми. Все участники группы имеют армянские корни.

- We Don't Give

135
4
Шрифт
14
Добавить песню в избранные
Intro:
(rhythm might be a bit off, but you get the idea)
E|--10--10-10--10-10-10-10b--10-10--10-10-10--10--10-10--10-10-10-10b-|
B|--------------------------------------------------------------------|
G|--------------------------------------------------------------------|
D|--------------------------------------------------------------------|
A|--------------------------------------------------------------------|
E|--------------------------------------------------------------------|
 
E|--10-10-10--10-10b--10-10-10--10-10b--10-10-10--10-10b--10-10-10--10-10b-|
B|-------------------------------------------------------------------------|
G|-------------------------------------------------------------------------|
D|-------------------------------------------------------------------------|
A|-------------------------------------------------------------------------|
E|-------------------------------------------------------------------------|

Riff А
p.m. ... ...
E|-------------------------------------------------------------|
B|-------------------------------------------------------------|
G|--7-------------7------------7------------7------------------|
D|-------------------------------------------------------------|
A|--5--0-0-0-0--0-5-0-0-0-0--0-5-0-0-0-0--0-5-0-0-0-0--0-3-5-6-|
E|--0--0-0-0-0--0---0-0-0-0--0---0-0-0-0--0---0-0-0-0--0-------|

Riff В
E|----------------------------------------------------|
B|----------------------------------------------------|
G|----------------------------------------------------|
D|------------------------------------6-6-6-6---------|
A|-1-1-1-1-/7-7-7-7--0-0-0-0-/6-6-6-6-4-4-4-4-5-5-5-5-|
E|-1-1-1-1-/7-7-7-7--0-0-0-0-/6-6-6-6---------5-5-5-5-|

Riff С
p.m...............................................................
E|-----------------------------------------------------------------|
B|-----------------------------------------------------------------|
G|-----------------------------------------------------------------|
D|-----------------------------------------------------------------|
A|-----------------------------------------------------------------|
E|-0-0-0-0-0-0-0-0-0-0-0-0-0-0-0-0-0-0-0-0-0-0-0-0-0-0-0-0-0-0-0-0-|

Riff D (verse)
E|------------------------------------------------------|
B|------------------------------------------------------|
G|-10-10-10-10-10-10-10-10-10-10-9-9-9-9-9-9-9-9-9-9-12-|
D|------------------------------------------------------|
A|-8--8--8--8--8--8--8--8--8--8--7-7-7-7-7-7-7-7-7-7-10-|
E|------------------------------------------------------|

E|-------------------------------------------------------------|
B|-------------------------------------------------------------|
G|-12-12-12-12-12-12-12-12-12-10-10-10-10-10-10-10-10-10-10-10-|
D|-------------------------------------------------------------|
A|-10-10-10-10-10-10-10-10-10-8--8--8--8--8--8--8--8--8--8--8--|
E|-------------------------------------------------------------|

E|-------------------------------------------------------------|
B|-------------------------------------------------------------|
G|-14-14-14-14-14-14-14-14-14-14-12-12-12-12-12-12-12-12-12-12-|
D|-------------------------------------------------------------|
A|-12-12-12-12-12-12-12-12-12-12-10-10-10-10-10-10-10-10-10-10-|
E|-------------------------------------------------------------|

E|-------------------------------------------------------------|
B|-------------------------------------------------------------|
G|-16-16-16-16-16-16-16-16-16-16-14-14-14-14-14-14-14-14-14-14-|
D|-------------------------------------------------------------|
A|-14-14-14-14-14-14-14-14-14-14-12-12-12-12-12-12-12-12-12-12-|
E|-------------------------------------------------------------|

Riff E (Pre Chorus)
E|-----------------------10b--------------------------------------10b-|
B|--------------------------------------------------------------------|
G|--7---7--7---7--7--7-------7--7---7--7--7---7---7--7---7--7--7------|
D|--------------------------------------------------------------------|
A|--------------------------------------------------------------------|
E|--------------------------------------------------------------------|

E|---------------10b---------------10b---------------10b---------------10b-|
B|-------------------------------------------------------------------------|
G|--7--7--7---7-------7--7--7---7-------7--7--7---7-------7--7--7---7------|
D|-------------------------------------------------------------------------|
A|-------------------------------------------------------------------------|
E|-------------------------------------------------------------------------|

Riff F (in the middle of the chorus)
n.h. ...
E|------------------|
B|------------------|
G|------------------|
D|----------5-------|
A|-5----------------|
E|---0-0-0----0-0-0-|

Riff H (interlude)
n.h......................
E|-------------------------|
B|-------------------------|
G|-------------------------|
D|-----5-----5-----5-----5-|
A|--5-----5-----5-----5----|
E|-------------------------|                

Комментарии

Аватар гитара