- The Kids Aren't Allright

4
Распечатать песню
14
В избранные

Аккорды к песне The Kids Aren't Allright

 Проигрыш:
e|---------------1---1---1-1-1-1---------------2---2---2-2-2-2-|
B|-----2---2---2-2---2---2-2-2-2---------------2---2---2-2-2-2-|
G|-3-3-3---3---3-3---3---3-3-3-3-----3---3---3-3---3---3-3-3-3-|
D|-3-3-3---3---3-3---3---3-3-3-3-4-4-4---4---4-4---4---4-4-4-4-|
A|-1-1-1-1-1-1-1-1-1-1-1-1-1-1-1-4-4-4---4---4-4---4---4-4-4-4-|
E|-------------------------------2-2-2-2-2-2-2-2-2-2-2-2-2-2-2-|

e|---------------4---4---4-4-4-4-----4---4---4-4---4---4-4-4-4-|
B|-----6---6---6-6---6---6-6-6-6-4-4-4---4---4-4---4---4-4-4-4-|
G|-6-6-6---6---6-6---6---6-6-6-6-5-5-5---5---5-5---5---5-5-5-5-|
D|-6-6-6---6---6-6---6---6-6-6-6-6-6-6-6-6-6-6-6---6---6-6-6-6-|
A|-4-4-4-4-4-4-4-4-4-4-4-4-4-4-4-------------------6---6-6-6-6-|
E|-----------------------------------------------4-4-4-4-4-4-4-|

 Куплет:
 Bb
When we were young the future was so bright
 F#
The old neigHborhood was so alive
 C#
And every kid on the whole damn street
 G#
Was gonna make it big and not be beat

Now the neigHborhood's cracked and torn
The kids are grown up but their lives are worn
How can one little street
Swallow so many lives

 Припев:
       Bb
Chances thrown
       F#
Nothing's free
      C#          G#
Longing for what used to be
Still it's hard
Hard to see
Fragile lives, shattered dreams

 Solo:
e|-------------------------------------------------------------|
B|-------------------------19-21-------18-18-16p14p12/14-16-14-|
G|-------------13-15-17-18-------18-17-------------------------|
D|-------------------------------------------------------------|
A|-1-3/4-4-6/8-------------------------------------------------|

e|------------------------|
B|--------------12/14-16--|
G|----16-14-12------------|
D|------------------------|
A|------------------------|

 Куплет:
Jamie had a chance, well she really did
Instead she dropped out and had a couple of kids
Mark still lives at home cause he's got no job
He just plays guitar and smokes a lot of pot

Jay committed suicide
Brandon OD'd and died
What the hell is going on
The cruelest dream, reality

 Припев

 Solo

 Interlude:
e|-----------------------------|
B|-9-11--9-11------------------|
G|-----------------------------|

 Припев